Крава о жизни и музыке!

Тут вам не здесь…

«Самый быстрый самолет», Аквариум (БГ), видео под гитару, аккорды, табы

Февраль23

Общие аккорды примерно такие, но ниже я написал достаточно подробную табулатуру, то, как её услышал.

Am  E                    Am              G            C         G C
Не успели все разлить а полжизни за кормо-o-ю
            F                    C               Dm          Am
И ни с лупой ни с ружьем не найти её следы
              A7               Dm            G          C      DmAm
Самый быстрый самолет не успеет за тобо-o-ю
    Dm                  Am           E                         Am
А куда деваться мне я люблю быть там где ты

             E                Am                 G                C G C
Вроде глупо так стоять да не к месту целоваться
        F                         C             Dm                       Am
Я ушел бы в темный лес да нельзя свернуть с тропы
        A7               Dm            G                   C Dm Am
Остается лишь одно- пить вино да любоваться
           Dm           Am         E                    Am
Если б не было тебя я б ушел давным давно

               E                 Am                   G                  C G C
Так что хватит запрягать хватит гнаться за судьбою
             F              C                    Dm            Am
Хватит попусту гонять в синем море корабли
             A7                  Dm            G         C DmAm
Самый быстрый самолет не поспеет за тобою
         Dm                Am             E                  Am
Но когда ты прилетишь я махну тебе с земли
              A7               Dm            G           C DmAm
Самый быстрый самолет не поспеет за тобою
         Dm                Am             E                 Am
Но когда ты прилетишь я махну тебе с земли

 

Вступление:

1)-5-6-5-------1-----1-0-----0-1-----1-0------0-1-----1-
2)-------8-6-5-----3-------1-------1-------1--------3---
3)---------------2-------0-------2-------0--------2-----
4)-------------0--------------------------------0-------
5)---------------------3---------------3----------------
6)-----------------------------1------------------------
1)-0-----------0------------------0-----------------
2)-------1-0-----3-------01-----1------------------
3)-----2-----------2---2------2--------------------
4)---2-------2-------2------2----------------------
5)-0---------------0-------------------------------
6)---------0--------------------------------------

Куплет:

1)-----------------------------0-------------------------------
2)-----0-----0-1-----1-3-----3-------1-----3---1-----1--------------
3)---1-----1-------2-------0-------0-----0---------0-----------
4)-2-----2-------2-------0-------2-----2-----0---2-------------
5)-------------0---------------3-----------2---0----------------
6)-----0---------------3--------------------------------------
  (V)     (III)
1)-5-------3-------1-----1-0--------------0-----0-1-----1-
2)-------6-------5-----3---------01-----1-------------3---
3)-----5-------5-----2---------2------2-------0-----2-----
4)---7-------5-----0---------2------2-------2-----0-------
5)-8-------3---------------0--------------0---------------
6)--------------------------------------------------------
1)-3-----0-0-----------------------5-----5-0-----------0--
2)---------------1-----3---1-----1-----3---------1-0-----3
3)-----0-------0-----0---------2-----2---------2----------
4)---0-------2-----2-----0---2-----0---------2-------2----
5)---------3-----------2---0---------------0--------------
6)-3-----------------------------------------------0------
1)----------------0--
2)-------01-----1----
3)-2---2------2------
4)---2------2--------
5)-0-----------------
6)-------------------

Здесь есть еще правильные аккорды группы Аквариум (Бориса Гребенщикова)

Борис Гребенщиков, Аквариум, цитаты, мудрости, правильные аккорды и видео под гитару от кравы

Расскажите об этом в соц. сети

Опубликовать в Google Plus
Опубликовать в LiveJournal
Опубликовать в Мой Мир
Опубликовать в Одноклассники
Опубликовать в Яндекс

автор опубликовано в рубрике Аккорды и видео под гитару | Комментировать »    

Адрес никому не виден

Например:

Ваш комментарий

Подписка

Календарь записей

Октябрь 2017
Пн Вт Ср Чт Пт Сб Вс
« Сен    
 1
2345678
9101112131415
16171819202122
23242526272829
3031