Крава о жизни и музыке!

Тут вам не здесь…

«Помнят с горечью древляне», Король и Шут, аккорды, табы, видео под гитару

Май18


Вступление (соло): Hm | Hm | A | A

          G
Помнят с горечью древляне,
        Em
Хоть прошло немало лет,
     C
О романтике Демьяне,
       D
Чей лежит в лесу скелет.
Жаль, никто ему не верил,
Но захватывало дух
От его былин о фее -
Повелительнице мух.

       Hm                        A
К этой фее был романтик полон страсти и любви,
        G           C           Em
Чувства ей хотел он выразить свои!
        D           C Hm      D
Чувства выразить свои!   Хе-е-ей!

В час, когда он видел фею,
Начинал ей повторять:
"Жизнь свою не пожалею
За твою любовь отдать!"
Все застыли в изумлении,
Лишь народ о том узнал,
Что Демьян по воле феи
Поклоняться мухам стал!

        Hm                       A
К этой фее был романтик полон страсти и любви,
        G           C           Em
Чувства ей хотел он выразить свои!
        D           C  D
Чувства выразить свои!

         G        C          Em
Романтик идола в овраге  сотворил,
       D           C  Hm     D
Ему он жертвы приносил! Э-ге-гей!

Проигрыш(соло): G | Em | C | D |  } 2 раза
          Hm | A

          G          C            Em
Эй, люди, мухам поклоняться нужно нам,
      D          C    D
А не языческим богам!
           G            C       Em
Я, братцы, до того, как фею полюбил,
         D           C    D
По сути, безнадежным был!

        G          C   Em
Не знал романтик, что она
       D          C   D
Для любви не рождена.
        G      C      Em
И не безгрешен сам он был,
        D            C    D
Он тоже мух когда-то бил.
       G         C             Em
Летели мухи на него со всех сторон,
        D            C
Был ритуально скушан он...

Вступление (соло):
4)-9-9-9-9-7-7-7-7-----------------9-9-9-9-7-7-7-7-5----
5)-----------------9-9-9-9-5-5-5-5----------------------

Проигрыш (соло):

1)-------------------------------------8-8-8-7-7-5---------
2)-5-8-10-8-10-12-10-8-5-8-7--875-10-8-------------8-5-8-5-

1)-------------------------------------------------
2)-8--7-7-8-10---5-8-10-8---10-8---10-8---10-8---10-8----
3)------------------------9------9------9------9------9

2)-8-7-7-7-8-7-5-----------------------------5-8-10-12----
3)---------------4-5-5-5-5-4-4-2--0-2-4-5-7--

2)-12-10-8-7-5--------------------------------------------
3)-------------7------------------------------------------
4)----------------9-9-9-9-7-7-7-7-------------------------
5)--------------------------------9-9-9-9-5-5-5-5---------

4)-9-9-9-9-7-7-7-7-5--------------------------------------

Еще аккорды и видео на песни группы «Король и Шут» и Михаила Горшенева

 

Расскажите об этом в соц. сети

Опубликовать в Google Plus
Опубликовать в LiveJournal
Опубликовать в Мой Мир
Опубликовать в Одноклассники
Опубликовать в Яндекс

автор опубликовано в рубрике Аккорды и видео под гитару | Комментировать »    

Адрес никому не виден

Например:

Ваш комментарий

Подписка

Календарь записей

Апрель 2018
Пн Вт Ср Чт Пт Сб Вс
« Сен    
 1
2345678
9101112131415
16171819202122
23242526272829
30